rilokiley.net
 
Welcome Guest: Register | Log in
 
My Posts | My Messages | My Profile | Search | Memberlist
 
The Frug
 
Post new topic   Reply to topic
RKnet Forum Index -> Rilo Kiley Tablature
View previous topic :: View next topic  
Author Message
rknet
Site Admin
Site Admin


Joined: 19 May 2003
Posts: 3533
Location: MA

PostPosted: Thu Jun 15, 2006 1:12 pm
PostPost subject: The Frug
Reply with quote

Code:
The Frug by Rilo Kiley
by Tim S. (moothemagiccow@hotmail.com)

Verse/Main Riff
------------------------------------------
------------------------------------------
------------------------------------------
-7-7-7--7---------------------------------
-4/5-5--5-7--7-7--7--7-7-7----------------
----------4--4/5*-5--5-5-5----------------
stop after star on fourth time

Chorus
------------------------------------------
-7-7--7-9--10--10-10--10-10-10------------
-7-7--7-9--9---9--9---9--9--9-------------
-7-7--7-9--7---7--7---7--7--7-------------
------------------------------------------
------------------------------------------

(last time)
------------------------------------------
-7-7--7-9--10-10--------------------------
-7-7--7-9--9--9---------------------------
-7-7--7-9--7--7---------------------------
------------------------------------------
------------------------------------------

3rd Verse
------------------------------------------
-------7---------------5------------------
-----7---7---7-------6---6----------------
---7-------7-------7-------7--------------
-5---------------7-----------7------------
------------------------------------------
(just arpeggiate the D and A chords)

Last Chorus
------------------------------------------
-------7--------------10------------------
-----7---7---9----9------9---9------------
---7--------9---7---7------7--------------
-5----------------------------------------
------------------------------------------
(basically arpeggiate the chorus)

End
----------------5-------------------------
-7--------------5-------------------------
-7--------------6-------------------------
-7--------------7-------------------------
-5--------------7-------------------------

_________________
Stay together for the kids
Back to top
View user's profile Send private message Send e-mail Visit poster's website AIM Address
Display posts from previous:   
RKnet Forum Index -> Rilo Kiley Tablature All times are GMT - 4 Hours
Post new topic   Reply to topic
Page 1 of 1
Jump to:  

 
You cannot post new topics in this forum
You cannot reply to topics in this forum
You cannot edit your posts in this forum
You cannot delete your posts in this forum
You cannot vote in polls in this forum