rilokiley.net
 
Welcome Guest: Register | Log in
 
My Posts | My Messages | My Profile | Search | Memberlist
 
Spectacular Views (Salute MY Shorts)
 
Post new topic   Reply to topic
RKnet Forum Index -> Rilo Kiley Tablature
View previous topic :: View next topic  
Author Message
rknet
Site Admin
Site Admin


Joined: 19 May 2003
Posts: 3533
Location: MA

PostPosted: Thu Jun 15, 2006 12:59 pm
PostPost subject: Spectacular Views (Salute MY Shorts)
Reply with quote

Code:
Rilo Kiley
"Salute My Shorts!" (Take-offs Hidden Track)
Tabbed by Ian Miller
epitomeofpe@aol.com

[This is somewhat simplified from the album version, but it sounds good to me]


C                             X3
--------------------------------I-----------------------
----1-------1-------1-------1---I-----1-------1---------
------0-------0-------0-------0-I-------0-------0-------
-----------------3-3------------I-----------------------
-3-3-----3-3-------------3-3----I--3-3-----3-3-------0-2 <-- played at the end of each verse followed
--------------------------------I------------------3----     by four more of the begining 4 notes
 
when we broke down in that small mining town
i was ready for quitting, my guard was down
it was summer all day, in your dad's chevrolet
and so we decided to stay


Am D G C
----------------------------------------------------
-----1-------1--------3--------3-------0-------0----
-------2-------2--------2--------2-------0-------0--
------------------0-0------0-0----------------------
-0-0------0-0---------------------------------------
------------------------------------3-3-----3-3-----
and we want spectacular views, if we're to stay for


-----------------
----1-------1----
------0-------0--
-----------------
-3-3-----3-3-----
-----------------
the weekend

Am D C C

------------------------------------
-----1-------1--------3--------3----
-------2-------2--------2--------2--
------------------0-0------0-0------
-0-0------0-0-----------------------
------------------------------------
and you swear, there'll be no bad news

-------------------------
----1-------1------------
------0-------0----------
-------------------------
-3-3-----3-3----------0-2
--------------------3----
if we stay, if we stay without looking back


----0----------------------------0----
----1----------------------------1----
----0----------------------------0----
----2----------------------------2----
----3-------------------0-2------3----
----0----------------------3-----0----
no you can't stay here  tomorrow

_________________
Stay together for the kids
Back to top
View user's profile Send private message Send e-mail Visit poster's website AIM Address
Display posts from previous:   
RKnet Forum Index -> Rilo Kiley Tablature All times are GMT - 4 Hours
Post new topic   Reply to topic
Page 1 of 1
Jump to:  

 
You cannot post new topics in this forum
You cannot reply to topics in this forum
You cannot edit your posts in this forum
You cannot delete your posts in this forum
You cannot vote in polls in this forum