rilokiley.net
 
Welcome Guest: Register | Log in
 
My Posts | My Messages | My Profile | Search | Memberlist
 
Room 8
 
Post new topic   Reply to topic
RKnet Forum Index -> Rilo Kiley Tablature
View previous topic :: View next topic  
Author Message
rknet
Site Admin
Site Admin


Joined: 19 May 2003
Posts: 3533
Location: MA

PostPosted: Thu Jun 15, 2006 12:58 pm
PostPost subject: Room 8
Reply with quote

Code:
Room 8 - Rilo Kiley
tabbed by Alicia Farahmand (alicialuewho@gmail.com)

Bm - 224432
F#m- 244222

Standard Tuning

e|--10/2--10/2--2/5--5/7--5-------10/2--10/2--2/5--5/7--9/10-10--
B|--------------------------2-3----------------------------------
G|---------------------------------------------------------------
D|---------------------------------------------------------------
A|---------------------------------------------------------------
E|---------------------------------------------------------------

D
room 8 the invite says
         A
come and surpise you're oldest friend
    D       G
the door's ajar, what's behind
   D   A   D
in room 8, room 8, room 8

D
cards are found in boxes there
           A
welcome me in to the earthly air
  D        G
a baby girl named Jennifer
     D      A         D
born here, born here, in room 8

e|--10/2--10/2--2/5--5/7--5-------
B|--------------------------2-3---
G|--------------------------------

e|--10/2--10/2--2/5--5/7--9/10-10-
B|--------------------------------
G|--------------------------------

D
lock the car tremble and shake
         A
maybe the call was just a fake
    D            G
but there she is spotted through rain
     D       A      D
jennifer she calls your name

D
on the bed, hip displaced
        A
broken nose and a toothless face
    D       G
but she's alive, she's awake
   D   A   D
in room 8, room 8, room 8

and she whispers,
G          F#m             Bm   A         G
we're still working full-time for love underpaid, overworked, uninsured
Bm(or G)     A             D     A       Bm
we'll work gladly with our hands, we'll take off our gloves
     G         A
'til it's only love - 'til love remains
   D   A   D
in room 8, room 8, room 8

SOLO:

e|--10-----------10-----------------------------------
B|-----10-6b7------10-6b7r6--------3-------3--2-------
G|-----------------------------2h4-----2h4------------

e|-----10-----10-----10-----10h12-10----10-----10-----
B|--10-----10-----10-----10----------10-----10-----10-
G|----------------------------------------------------

e|--15p10-----12p10-----15p10-----12-10------10-----10-----10-
B|--------10--------10--------10----------10-----10-----10----
G|------------------------------------------------------------

     D
I've never felt this pain before
       A
doubled over the motel floor
    D       G
the ambulance it pulls away
     D      A    D
with only tears as my alibi

    G            F#m       Bm   F#m          G
but I'm still workin' full-time for love 9 to 5, weekends, and holidays
Bm(or G)         A
don't lay me off with severence pay
     D       A   Bm
work me 'til I'm enslaved
   G      A
by your elusive ways, invisible of
   D   A   D-A-D
in room 8, room 8, room 8

_________________
Stay together for the kids
Back to top
View user's profile Send private message Send e-mail Visit poster's website AIM Address
hobochick
Cool Kid
Cool Kid


Joined: 24 Apr 2006
Posts: 784
Location: CT

PostPosted: Thu Aug 17, 2006 5:50 pm
PostPost subject: Re: Room 8
Reply with quote

rknet wrote:
Code:
Room 8 - Rilo Kiley
tabbed by Alicia Farahmand (alicialuewho@gmail.com)

Bm - 224432
F#m- 244222

SOLO:

e|--10-----------10-----------------------------------
B|-----10-6b7------10-6b7r6--------3-------3--2-------
G|-----------------------------2h4-----2h4------------

e|-----10-----10-----10-----10h12-10----10-----10-----
B|--10-----10-----10-----10----------10-----10-----10-
G|----------------------------------------------------

e|--15p10-----12p10-----15p10-----12-10------10-----10-----10-
B|--------10--------10--------10----------10-----10-----10----
G|------------------------------------------------------------
how do you play 6b7 what does the letter mean same for
6b7r6
2h4
10h12
15p10
and 12p10

how in gods name do you play f#m i dont understand where your fingers would go to play that.
_________________
http://www.myspace.com/5830031
www.love146.org
Back to top
View user's profile Send private message Visit poster's website AIM Address MSN Messenger
otakutheiii



Joined: 09 Oct 2005
Posts: 75
Location: Santa Rosa, CA

PostPosted: Sat Aug 19, 2006 12:39 am
PostPost subject:
Reply with quote

i dont know about the 6b7, but to play an F#m, it's:
e|-2
B|-2 its a barre chord, so you use the index finger to barre the 2nd
G|-2 fret, the use the 3rd and 4th fingers to fret the 4th fret. I hope
D|-4 that wasn't too confusing.
A|-4
E|-2
Back to top
View user's profile Send private message
long_distance_drunk



Joined: 22 Feb 2006
Posts: 17

PostPosted: Sat Aug 19, 2006 9:31 am
PostPost subject:
Reply with quote

Quote:
6b7r6

The b stands for bend and the r stands for release. So you bend the string on the 6th fret until it sounds like the seventh and release it back.

Quote:
2h4
10h12

H stands for hammer on. So for example with the 2h4 you pick the string on the second fret and rather than pick the string on the fourth you hammer your finger onto the fourth fret.

Quote:
15p10
and 12p10

The p stands for pull off. Imagine this as being the opposite to hammer ons. With the 15p10 you have to pick the string on the 15th fret and pull off your finger at the same time as hammering onto the 10th fret.

I dont know if that makes any sense to you, but if you just google guitar tablature then there will be loads of different explanations.
Back to top
View user's profile Send private message
hobochick
Cool Kid
Cool Kid


Joined: 24 Apr 2006
Posts: 784
Location: CT

PostPosted: Sat Aug 19, 2006 4:42 pm
PostPost subject:
Reply with quote

thanks that makes
lots of sense
_________________
http://www.myspace.com/5830031
www.love146.org
Back to top
View user's profile Send private message Visit poster's website AIM Address MSN Messenger
Display posts from previous:   
RKnet Forum Index -> Rilo Kiley Tablature All times are GMT - 4 Hours
Post new topic   Reply to topic
Page 1 of 1
Jump to:  

 
You cannot post new topics in this forum
You cannot reply to topics in this forum
You cannot edit your posts in this forum
You cannot delete your posts in this forum
You cannot vote in polls in this forum