rilokiley.net
 
Welcome Guest: Register | Log in
 
My Posts | My Messages | My Profile | Search | Memberlist
 
Capturing Moods
 
Post new topic   Reply to topic
RKnet Forum Index -> Rilo Kiley Tablature
View previous topic :: View next topic  
Author Message
rknet
Site Admin
Site Admin


Joined: 19 May 2003
Posts: 3533
Location: MA

PostPosted: Thu Jun 15, 2006 12:49 pm
PostPost subject: Capturing Moods
Reply with quote

Code:
Rilo Kiley Capturing Moods
Tabbed by Jordan Winick (mutok@tmbg.org)

--------------------------------------------------------
--------------------------------------------------------
-6-6-6-6-7-9-11-11-11-11-9-7-6-6-6-6-7-9-11-11-11-9-9-9-
--------------------------------------------------------
-4-4-4-4-5-7-9--9--9--9--7-5-4-4-4-4-5-7-9--9--9--7-7-7-
--------------------------------------------------------                           

--------------------------------------------------------
--------------------------------------------------------
-7-7-7-7-7-7-6-6-6-6-6-6-7-7-7-7-7-7-4-4-4-4-4-4--------
--------------------------------------------------------
-5-5-5-5-5-5-4-4-4-4-4-4-5-5-5-5-5-5-2-2-2-2-2-2--------
--------------------------------------------------------

Second time:
--------------------------------------------------------
-------------7-7-7-7-----------------7-7-7--------------
-6-6-6-6-7-9---------9-7-6-6-6-6-7-9-------9-9-9--------
--------------------------------------------------------
--------------------------------------------------------
--------------------------------------------------------

--------------------------------------------------------
-------7---7-------7---7-------7---7--------------------
-7-7-7---7---6-6-6---6---7-7-7---7---4-4-4-6-/-4-/-2----
--------------------------------------------------------
--------------------------------------------------------
--------------------------------------------------------
                                                                             
(a way to play the verse chords)
-------------2-2-2-2-------
-2-2-2-2-3-5-2-2-2-2-5-3-2-
-2-2-2-2-2-2-2-2-2-2-2-2-2-
-2-2-2-2-2-2-2-2-2-2-2-2-2-
-0-0-0-0-0-0-0-0-0-0-0-0-0-
---------------------------

A
Moods don't command you if you
A
don't know what you're going through.
        D        C#m    D         E          A
There's love for you up where the population grows.

There are friendly people in cities too, just ask them where they are going to.  There's life and work up where the clouds meet the snow.
    D            E           A
And I don't mind waiting....

(repeat intro)

I'm always one step ahead of you if you don't know what you're going through.  There's laughs and fun up where the conversation flows.

Chorus:
D            E             A       E         D
I don't mind waiting if it takes a long long time.
I don't mind braving the coldest winter of our time.
D            E                  A
I don't mind racing through our goodbyes.

Bm                        D
This is your last line of defense.
Bm                                    D           E           A
You can sell your baseball cards just to pay your rent, yeah.

Chorus:
I don't mind waiting if it takes a long, long time.
I don't mind wasting the best years of our lives.
I don't mind racing through our goodbyes.
[/quote]
_________________
Stay together for the kids
Back to top
View user's profile Send private message Send e-mail Visit poster's website AIM Address
idiot kid



Joined: 27 Dec 2006
Posts: 1

PostPosted: Fri Dec 29, 2006 5:11 pm
PostPost subject:
Reply with quote

I don't quite have it right, especially not the second part, but here's the solo to the best of my reckoning.

Code:

e----15---11------------------16~--18191819181918
B-16----13----13~-----16~------------------------
G------------------13--------------------------18
D------------------------------------------------
A------------------------------------------------
E------------------------------------------------

e------------------------------------------------14~----18191819181918
B---------------------14-----------------16~--------------------------
G-15-18-15----------15--15------1516~---------------------------------
D----------16-----16------16--16------16------16----------------------
A-------------16~-----------16----------------------------------------
E---------------------------------------------------------------------
Back to top
View user's profile Send private message AIM Address
Display posts from previous:   
RKnet Forum Index -> Rilo Kiley Tablature All times are GMT - 4 Hours
Post new topic   Reply to topic
Page 1 of 1
Jump to:  

 
You cannot post new topics in this forum
You cannot reply to topics in this forum
You cannot edit your posts in this forum
You cannot delete your posts in this forum
You cannot vote in polls in this forum